le le principale sur POH
tout ce que vous voulez savoir sur POH c'est dedans^_^
FAQFAQ RechercherRechercher MembresMembres GroupesGroupes S’enregistrerS’enregistrer
ProfilProfil Se connecter pour vérifier ses messages privésSe connecter pour vérifier ses messages privés ConnexionConnexion

les tabs de chansons plus ou moins connues

Poster un nouveau sujet Répondre au sujet le principale sur POH Index du Forum -> le principal sur The Black Crows -> tabs de guitare The Black Crows
Sujet précédent :: Sujet suivant
Auteur Message
POH-singer
The Blakcs Crows

Hors ligne

Inscrit le: 26 Mar 2009
Messages: 164

MessagePosté le: Sam 4 Avr - 17:22 (2009) Sujet du message: les tabs de chansons plus ou moins connues Répondre en citant

SMOKE ON THE WATER:DEEP PURPLE


E}
A}
D}-O-3-5-0-3-6-5-0-3-5-3-0-
G}-O-3-5-0-3-6-5-0-3-5-3-0-
B}
E}
_________________
merci a vous de lire mes messages^^


Revenir en haut
Publicité






MessagePosté le: Sam 4 Avr - 17:22 (2009) Sujet du message: Publicité

PublicitéSupprimer les publicités ?
Revenir en haut
POH-singer
The Blakcs Crows

Hors ligne

Inscrit le: 26 Mar 2009
Messages: 164

MessagePosté le: Dim 5 Avr - 20:20 (2009) Sujet du message: bob marley Répondre en citant

E}-3----3--------3---------3-------3
A}--0-2---3----2---0-2-----3-2-0
D}----------2-0---------0-----------
G}
B}
E}
_________________
merci a vous de lire mes messages^^


Revenir en haut
POH-singer
The Blakcs Crows

Hors ligne

Inscrit le: 26 Mar 2009
Messages: 164

MessagePosté le: Sam 27 Juin - 14:31 (2009) Sujet du message: michael jackson Répondre en citant

beat it***Michael Jackson


je ne suis pas un grand fan de Michael Jackson mais il mérite toute mon admiration,mon respect et mes hommages.C'est pourquoi je vous demande de jouer la tablature suivante du mieux que vous le pouvez




R.I.P Michael Jackson


e:-----|-----------------|-----------------|-----------------|-------------||
B:-----|-----------------|-----------------|-----------------|-------------||
G:-----|-----------------|-----------------|-----------------|-------------||
D:-----|-------5-2-----4-|---2-------------|-------5-2-----4-|---2---------||
A:-----|-----2-----------|-----5---5-------|-----2-----------|-----5-------||
E:--0--|---3-------------|---------------0-|---3-------------|-------------||



_________________
merci a vous de lire mes messages^^


Revenir en haut
POH-singer
The Blakcs Crows

Hors ligne

Inscrit le: 26 Mar 2009
Messages: 164

MessagePosté le: Sam 27 Juin - 14:32 (2009) Sujet du message: michael jackson Répondre en citant

we are the world*****Michael Jackson


pareil…


e--4-2-0------4-2-0--------4-2-0-----------0---0-2-0-------
b--------2----------2-0----------2-0-2-0-2---4--------2-0-- 
g---------------------------------------------------------- 
d---------------------------------------------------------- 
a---------------------------------------------------------- 
e----------------------------------------------------------


e--4-7-9-4-4-4-----9-7-9-7-5-4----2-0---0---0--4-2-0-0---0-
b-------------------------------------2---2------------4---
g----------------------------------------------------------
d----------------------------------------------------------
a----------------------------------------------------------
e----------------------------------------------------------
_________________
merci a vous de lire mes messages^^


Revenir en haut
Contenu Sponsorisé






MessagePosté le: Aujourd’hui à 21:24 (2018) Sujet du message: les tabs de chansons plus ou moins connues

Revenir en haut
Montrer les messages depuis:
Poster un nouveau sujet Répondre au sujet le principale sur POH Index du Forum -> le principal sur The Black Crows -> tabs de guitare The Black Crows Toutes les heures sont au format GMT + 1 Heure
Page 1 sur 1


Sauter vers:  

Index | Panneau d’administration | creer un forum | Forum gratuit d’entraide | Annuaire des forums gratuits | Signaler une violation | Conditions générales d'utilisation
Xtreme Skin Designed by Xtreme Web Developers visit website
Powered by phpBB © 2001, 2018 phpBB Group
Traduction par : phpBB-fr.com