le le principale sur POH
tout ce que vous voulez savoir sur POH c'est dedans^_^
FAQFAQ RechercherRechercher MembresMembres GroupesGroupes S’enregistrerS’enregistrer
ProfilProfil Se connecter pour vérifier ses messages privésSe connecter pour vérifier ses messages privés ConnexionConnexion

Tabs guitares principale
Aller à la page: <  1, 2
Poster un nouveau sujet Répondre au sujet le principale sur POH Index du Forum -> le principal sur The Black Crows -> tabs de guitare The Black Crows
Sujet précédent :: Sujet suivant
Auteur Message
POH-singer
The Blakcs Crows

Hors ligne

Inscrit le: 26 Mar 2009
Messages: 164

MessagePosté le: Jeu 19 Aoû - 14:46 (2010) Sujet du message: Always ready for Aphrodite Répondre en citant

Always ready for Aphrodite 

 

 
tab 

 
(intro) 

 
Part 1 

 
Disto: Black Panel 
effets:Chorus 
tone: treble 

 
d--------------------------------------------------/ 
A-------0----------------0---------------0-------/ 
F-----0----0----------0----0---------0----0-----/ 
C---0---------0----4----------4----5----------5-/ 
G-3--------------5----------------7---------------/ 
D---------------------------------------------------/ 
x2 

 
d-------------------------------------------------------------------/ 
A-------------------------------------------------------------------/ 
F-0-0-0-0-0-0-0-0--0-0-0-0-0-0-0-0--0-0-0-0-0-0-0-0-/ 
C-0-0-0-0-0-0-0-0--4-4-4-4-4-4-4-4--5-5-5-5-5-5-5-5-/ 
G-3-3-3-3-3-3-3-3--5-5-5-5-5-5-5-5--7-7-7-7-7-7-7-7-/ 
D-------------------------------------------------------------------/ 
x2 

 
Disto: Métal 
effets:aucun 
tone: treble 

 
    d-------------------------------------------------------------------// 
    A-------------------------------------------------------------------// 
X/ F-0-0-0-0-0-0-0-0--0-0-0-0-0-0-0-0--0-0-0-0-0-0-0-0-// 
X/ C-0-0-0-0-0-0-0-0--4-4-4-4-4-4-4-4--5-5-5-5-5-5-5-5-// 
X/ G-3-3-3-3-3-3-3-3--5-5-5-5-5-5-5-5--7-7-7-7-7-7-7-7-// 
    D-------------------------------------------------------------------// 
 x2 

 
"My love!!!" 

 
Part 2 

 
Disto: Métal 
effets:aucun 
tone: treble 
    
 d-------------------------------------------------------------------// 
 A-------------------------------------------------------------------// 
F-0-0-0-0-0-0-0-0--0-0-0-0-0-0-0-0--0-0-0-0-0-0-0-0-// 
C-0-0-0-0-0-0-0-0--4-4-4-4-4-4-4-4--5-5-5-5-5-5-5-5-// 
G-3-3-3-3-3-3-3-3--5-5-5-5-5-5-5-5--7-7-7-7-7-7-7-7-// 
D-------------------------------------------------------------------// 
x2 

 
(verse) 

 
Disto:Black Panel 
effets:aucun 
Tone:Treble 

 
d-3-3-3-3-3-3-3--5-5-5-5-5-5--3-3-3-3-3-3-3--7-7-7-7-7-7-7-7-/ 
A-0-0-0-0-0-0-0--3-3-3-3-3-3--0-0-0-0-0-0-0--5-5-5-5-5-5-5-5-/ 
F-0-0-0-0-0-0-0-------------------0-0-0-0-0-0-0------------------------/ 
C-0-0-0-0-0-0-0-------------------0-0-0-0-0-0-0------------------------/ 
G-2-2-2-2-2-2-2-------------------2-2-2-2-2-2-2------------------------/ 
D-3-3-3-3-3-3-3-------------------3-3-3-3-3-3-3------------------------/ 

 
x2 

 
      -x-------------------x------------- 
d-8-5-5-5-5-5-5-5-5-5-3h2h0-// 
A-5-5-5-5-5-5-5-5-5-5-----------// 
F--------------------------------------// 
C--------------------------------------// 
G--------------------------------------// 
D--------------------------------------// 

 
(pré-chorus) 

 
Disto: Métal 
effets:aucun 
tone: treble 

 
d-------------------------------------------// 
A--------------------------------------------// 
F--------------------------------------------// 
C--------------------------------------------// 
G-5-5-5-5-5-5-5-5--5-5-5-5-5-5-5-5-// 
D-3-3-3-3-3-3-3-3--3-3-3-3-3-3-3-3-// 
o-x-x-x-x-x-x-x-x------------------------- 

 
(chorus) 

 
Disto: Métal 
effets:aucun 
tone: treble 

 
d------------------------------------------------/ 
A-------------------------------------------------/ 
F-------------------------------------------------/ 
C------------------------------6p5h0-----------/ 
G-5p3h0-6p5h0-8p6h0---------------------/ 
D----------------------------------------6p5h0-/ 

 
(bridge) 

 
Disto: Métal 
effets:aucun 
tone: treble 

 
d-----------------------------------------// 
A-----------------------------------------// 
F-7-7-5--7-7-5--7-7-5--7-5---------// 
C----------------------------------7-5-7-// 
G------------------------------------------// 
D------------------------------------------// 

 

 

 

 

 

 

_________________
merci a vous de lire mes messages^^


Revenir en haut
Publicité






MessagePosté le: Jeu 19 Aoû - 14:46 (2010) Sujet du message: Publicité

PublicitéSupprimer les publicités ?
Revenir en haut
POH-singer
The Blakcs Crows

Hors ligne

Inscrit le: 26 Mar 2009
Messages: 164

MessagePosté le: Jeu 19 Aoû - 14:47 (2010) Sujet du message: sad Remebers Répondre en citant

Sad remembers 

 

 
tab 

 

 
(intro) 

 
Part 1 

 
Disto:Métal 
Effets:aucun 
Tone:Treble 

 
   d------------------------------------------------------// 
    A------------------------------------------------------// 
    F------------------------------------------------------// 
X/ C-10-9-10--12-10-12--13-12-13--15-13-15-// 
    G------------------------------------------------------// 
    D------------------------------------------------------// 
   
x3 

 
"When will i forget!!!" 

 
Part 2 

 
Disto:Métal 
Effets:aucun 
Tone:Treble 

 
d---------------------------------------// 
A---------------------------------------// 
F---------------------------------------// 
C---------------------------------------// 
G-3-1-3--4-3-4--h6-4-6--h8-6-8-// 
D-3-1-3--4-3-4--h6-4-6--h8-6-8-// 

 
x2 

 
(verse) 

 
Disto:Métal 
Effets:aucun 
Tone:Treble 

 
    d---------------------------------------// 
    A---------------------------------------// 
    F---------------------------------------// 
    C---------------------------------------// 
X/ G-3-1-3--4-3-4--h6-4-6--h8-6-8-// 
X/ D-3-1-3--4-3-4--h6-4-6--h8-6-8-// 

 
(chorus) 

 
Disto:Métal 
Effets:aucun 
Tone:Treble 

 
d--------------------------------------------------------/ 
A---------------------------------------------------------/ 
F-----------5-3-5-6-------------------------------------/ 
C-5-3-5-6------------0-5-3-5------------------------/ 
G---------------------------------0-5-3-5-6-5-3-5v-/ 
D---------------------------------------------------------/ 

 
d-------------------------------------------------------/ 
A--------------------------------------------------------/ 
F-----------7-5-7-8------------------------------------/ 
C-7-5-7-8------------0-7-5-7------------------------/ 
G---------------------------------0-7-5-7-8-7-5-7v-/ 
D---------------------------------------------------------/ 

 
d-----------------------------------------------------------/ 
A-----------------------------------------------------------/ 
F--------------9-7-9-10----------------------------------/ 
C-9-7-9-10------------0-9-7-9-------------------------/ 
G----------------------------------0-9-7-9-10-9-7-9v-/ 
D-----------------------------------------------------------/ 

 
(bridge) 

 
Disto:Métal 
Effets:aucun 
Tone:Treble 

 
d------------------------------------// 
A------------------------------------// 
F------------------------------------// 
C------------------------------------// 
G------------------------------------// 
D-x-x-x-x-x-x-x-x-0-0-0-0-0-// 

 

 

 

 

_________________
merci a vous de lire mes messages^^


Revenir en haut
POH-singer
The Blakcs Crows

Hors ligne

Inscrit le: 26 Mar 2009
Messages: 164

MessagePosté le: Dim 31 Oct - 16:11 (2010) Sujet du message: Tabs guitares principale Répondre en citant

Another way to die 

 
tab 

 
(intro) 

 
disto: metal 
effet(s): Reverb 

 
d-12-11h12h11h12h11h12h11h12h11h12h11h12h11h12h11h12h11h12h11-// 
A-----------------------------------------------------------------------------------------------------// 
F-----------------------------------------------------------------------------------------------------// 
C-----------------------------------------------------------------------------------------------------// 
G-----------------------------------------------------------------------------------------------------// 
D-----------------------------------------------------------------------------------------------------// 

 
(verse) 

 
disto: metal 
effet(s): aucun 

 
d---------------------------------------------------------------------------------------------------------------------------------------------------// 
A---------------------------------------------------------------------------------------------------------------------------------------------------// 
F------------------------------------------------------------------------------------------------------3333-5555-6666-1111-0000-1111-// 
C-----------------------------------------------7777-9999-10.10.10.10-5555-4444-5555----------------------------------------------// 
G-5555-7777-8888-3333-2222-3333-----------------------------------------------------------------------------------------------------// 
D---------------------------------------------------------------------------------------------------------------------------------------------------// 

 
(chorus) 

 
disto: metal 
effet(s): chorus 

 
d------------------------------------------------------------------------------------------------------------------------------// 
A------------------------------------------------------------------------------------------------------------------------------// 
F------------------------------------------------------------------------------------------------------------------------------// 
C------10----10---9----9-------12----12----9----9------14----14------12----12-------10-----10------12----12-// 
G-x-x-----x-----x----x----x-x------x-----x----x----x-x-----x------x-x-----x------x-x------x------x-x-----x------// 
D------------------------------------------------------------------------------------------------------------------------------// 

 
(bridge) 

 
disto: acc 
effet(s): Reverb 

 
d-7-7-7-7-7--7-7-7-7-7--7-7-7-7-7--7---7---7---7---7-// 
A-8-8-8-8-8--7-7-7-7-7--8-8-8-8-8--10-10-10-10-10-// 
F-9-9-9-9-9--9-9-9-9-9--9-9-9-9-9--7---7---7---7---7-// 
C-9-9-9-9-9--9-9-9-9-9--9-9-9-9-9--9---9---9---9---9-// 
G-7-7-7-7-7--7-7-7-7-7--7-7-7-7-7--7---7---7---7---7-// 
D-7-7-7-7-7--7-7-7-7-7--7-7-7-7-7--7---7---7---7---7-// 

 
(final) 

 
disto: metal 
effet(s): aucun 

 
d--------------------------12-11h12h11h12h11h12h11h12h11-/ 
A---------------------------------------------------------------------------/ 
F---------------------------------------------------------------------------/ 
C---------------------------------------------------------------------------/ 
G---------------------------------------------------------------------------/ 
D-x-x--x-x--x-x--x-x---------------------------------------------------/ 
x2 

 
d---------------------------------------------------------------------------------------------------------/ 
A---------------------------------------------------------------------------------------------------------/ 
F----------------------------------------------------------------------------------------------------------/ 
C-------------------------------10----9------12----9-------14----12-------10----12------10----9-/ 
G--------------------------x-x-----x----x-x-----x----x-x------x------x-x------x-----x-x-----x----/ 
D-x-x--x-x--x-x--x-x----------------------------------------------------------------------------------/ 

 
d--------------------// 
A--------------------// 
F--------------------// 
C-7-7--5-5--0h1-// 
G-5-5--3-3--0h1-// 
D--------------0h1-// 



_________________
merci a vous de lire mes messages^^


Revenir en haut
POH-singer
The Blakcs Crows

Hors ligne

Inscrit le: 26 Mar 2009
Messages: 164

MessagePosté le: Mar 22 Mar - 12:12 (2011) Sujet du message: dfdd Répondre en citant

http://www.sendspace.com/file/hzrhbw

i always think to you Jaymee Okay <3
_________________
merci a vous de lire mes messages^^


Revenir en haut
POH-singer
The Blakcs Crows

Hors ligne

Inscrit le: 26 Mar 2009
Messages: 164

MessagePosté le: Lun 26 Sep - 20:29 (2011) Sujet du message: a quand la serie de Jackson RR signature Sid ?? Répondre en citant

http://www.sendspace.com/file/86fopn Jackson RR BKSW S1

http://www.sendspace.com/file/089xon Jackson RR BKSW S2


http://www.sendspace.com/file/4jn2rc Jackson RR PBK S1


http://www.sendspace.com/file/6jcuuj Jackson RR PBK S2
_________________
merci a vous de lire mes messages^^


Revenir en haut
POH-singer
The Blakcs Crows

Hors ligne

Inscrit le: 26 Mar 2009
Messages: 164

MessagePosté le: Mar 27 Sep - 20:38 (2011) Sujet du message: sid's sig Répondre en citant

http://www.sendspace.com/file/f3zs02 RR PBK S3





http://www.sendspace.com/file/33cbg3 RBS1
_________________
merci a vous de lire mes messages^^


Revenir en haut
POH-singer
The Blakcs Crows

Hors ligne

Inscrit le: 26 Mar 2009
Messages: 164

MessagePosté le: Lun 20 Aoû - 20:16 (2012) Sujet du message: hzrjetyjke Répondre en citant

http://www.sendspace.com/file/nci1qi
_________________
merci a vous de lire mes messages^^


Revenir en haut
Contenu Sponsorisé






MessagePosté le: Aujourd’hui à 21:23 (2018) Sujet du message: Tabs guitares principale

Revenir en haut
Montrer les messages depuis:
Poster un nouveau sujet Répondre au sujet le principale sur POH Index du Forum -> le principal sur The Black Crows -> tabs de guitare The Black Crows Toutes les heures sont au format GMT + 1 Heure
Aller à la page: <  1, 2
Page 2 sur 2


Sauter vers:  

Index | Panneau d’administration | creer un forum | Forum gratuit d’entraide | Annuaire des forums gratuits | Signaler une violation | Conditions générales d'utilisation
Xtreme Skin Designed by Xtreme Web Developers visit website
Powered by phpBB © 2001, 2018 phpBB Group
Traduction par : phpBB-fr.com