le le principale sur POH
tout ce que vous voulez savoir sur POH c'est dedans^_^
FAQFAQ RechercherRechercher MembresMembres GroupesGroupes S’enregistrerS’enregistrer
ProfilProfil Se connecter pour vérifier ses messages privésSe connecter pour vérifier ses messages privés ConnexionConnexion

Tab Basse

Poster un nouveau sujet Répondre au sujet le principale sur POH Index du Forum -> le principal sur The Black Crows -> tabs de guitare The Black Crows
Sujet précédent :: Sujet suivant
Auteur Message
POH-singer
The Blakcs Crows

Hors ligne

Inscrit le: 26 Mar 2009
Messages: 164

MessagePosté le: Mer 6 Oct - 12:42 (2010) Sujet du message: Tab Basse Répondre en citant

I don't wanna feel anything anymore
(something or somebody else !!!)


tab---Basse

(intro)

Part 1

f-----------------------------------------------------------//
C----------------------------------------------------------//
G------------------------------0-0-0-0-0--1-1-1-1-1-//
D-1-1-1-1-1--3-3-3-3-3------------------------------//

"CRY !!!"

Part 2

f--------------------------------------------------------------/
C-7-7-7-7-7--8-8-8-8-8--3-3-3-3-3--5-5-5-5-5-s1-/
G-5-5-5-5-5--8-8-8-8-8--3-3-3-3-3--3-3-3-3-3-s1-/
D--------------------------------------------------------------/

(chorus)

f----------------------------------------------------------------------------------------//
C----------------------------------------------------------------------------------------//
G-------------------------------------------------------------------3-3-3-3-3-3-3-3-//
D-1-1-1-1-1-1-1-1--3-3-3-3-3-3-3-3--4-4-4-4-4-4-4-4----------------------//
_________________
merci a vous de lire mes messages^^


Revenir en haut
Publicité






MessagePosté le: Mer 6 Oct - 12:42 (2010) Sujet du message: Publicité

PublicitéSupprimer les publicités ?
Revenir en haut
POH-singer
The Blakcs Crows

Hors ligne

Inscrit le: 26 Mar 2009
Messages: 164

MessagePosté le: Ven 28 Juin - 12:29 (2013) Sujet du message: Kckdkd Répondre en citant

http://www.sendspace.com/file/gqhd39
_________________
merci a vous de lire mes messages^^


Revenir en haut
Contenu Sponsorisé






MessagePosté le: Aujourd’hui à 19:02 (2018) Sujet du message: Tab Basse

Revenir en haut
Montrer les messages depuis:
Poster un nouveau sujet Répondre au sujet le principale sur POH Index du Forum -> le principal sur The Black Crows -> tabs de guitare The Black Crows Toutes les heures sont au format GMT + 1 Heure
Page 1 sur 1


Sauter vers:  

Index | Panneau d’administration | creer un forum | Forum gratuit d’entraide | Annuaire des forums gratuits | Signaler une violation | Conditions générales d'utilisation
Xtreme Skin Designed by Xtreme Web Developers visit website
Powered by phpBB © 2001, 2018 phpBB Group
Traduction par : phpBB-fr.com